Richest Junkie Still Alive

Self Titled Tabs

Self Titled Bass Tabs

Rite Of Shiva

Riff 1
+------------------+------------------------+
|*-----------------|-----------------------*|
|*-----------------|-----------------0-1-0-*|
+--0-0-0-0-0-0-0-0-+-0-0-0-0-0-0-3-3--------+
Riff 2
+------------------+------------------+
|*-----------------|------------------|
|*-----------------|------------------|
+-0-0--0-0-0-0-3-5-+-0-0--0-0-0-3-2-1-+
+------------------+-------------------+
|------------------|------------------*|
|------------------|------------------*|
+-0-0--0-0-0-0-3-5-+-0-0--0-0-0-5-3-2--+
Riff 3
+-----------+
|*---------*|
|*---------*|
+--0-0------+
Riff 4
+----------+---------+---------+----------+
|*---------|---------|---------|----R----*|
|*-7-7-6-5-|-5-5-4-3-|-7-7-6-5-|---------*|
+----------+---------+---------+----------+
+----------+---------+---------+----------+
|*---------|---------|---------|---------*|
|*-7-7-6-5-|-5-5-4-3-|-7-7-6-5-|-0-2-3-0-*|
+----------+---------+---------+----------+
Riff 1 x4
Riff 2 x2
Riff 3 x8
Riff 2 x1
Riff 4 x1
Riff 5 x2
Riff 2 x1
Riff 3 x7
Solo
Riff 4 x1
Riff 5 x5
Riff 3 x7 with a pluck & slide at the end
Riff 5 repeat until end improvising more and more

Lipstick 66

----------------------------------------------
G -------------------------------------
D -------------------------------------
A ---9-----4-5-----0-2-----------------
E -------------------------2-3---------
This is close but nowhere near perfect. Use a pick to get that percussive 'twangy' sound. I play it either standard tuning (E A D G) or everything tuned a half step down (D# G# C# F#). I left the solo out.